Ultima Thule

Forum fanów Armii i 2TM2,3
Dzisiaj jest ndz, 24 września 2017 07:42:59

Strefa czasowa UTC+1godz.




Nowy temat Odpowiedz w temacie  [ Posty: 16 ]  Przejdź na stronę 1, 2  Następna
Autor Wiadomość
PostWysłany: czw, 16 grudnia 2004 10:22:57 
Awatar użytkownika

Rejestracja:
pt, 19 listopada 2004 15:47:56
Posty: 10888
No cóż, ten temat musiał się chyba pojawić. Napisałem go dużymi literkami, aby youzwa zauważył (czywiście żartuję) moją obecność na forum (pozdrawiam serdecznie)

Tak sobie pomyślałem, że mogłyby się tu pojawić pomysły jak zagrać dane kawałki, póki ich jeszcze na stronie nie ma. Sam nie umiem zbyt dobrze pisać tabóf, ale mimo to spróbuję też coś tu wrzucić. Na początek: Stul ogona - b. fajny kawałek. Mi się WYDAJE, że to się gra jakoś tak:

E-------------------------
H-------------------------
G-------------------------
D--0-0--x-x--
A--0-0--x-x----
D--0-0--x-x---
Grzeszniku Indyku


E-------------------------
H-------------------------
G-------------------------
D--3-6--5-4----
A--3-6--5-4---- X2
D--3-6--5-4---


E-------------------------
H-------------------------
G-------------------------
D--3-x--6---------
A--3-x--6---------
D--3-x--6--------
STUL OGONA STUL OGONA STUL OGONA STUUUUUUUUUUUUL

Tak ja to słyszę, jak ktoś słyszy inaczej to niech wpisuje!
Pozdrawiam

_________________
Więc dokąd, dokąd ta wędrówka
Posmutniał król i zadął w róg
Przeciwnik straszy, pielgrzym idzie
A pyta zawsze Bóg


Na górę
 Wyświetl profil
 Tytuł:
PostWysłany: czw, 16 grudnia 2004 13:36:20 
Awatar użytkownika

Rejestracja:
wt, 09 listopada 2004 19:34:44
Posty: 1092
Skąd: toruń
Zly To Pies

na basie:

G-----------------------
D-----------------------
A---------------3-------
E-1-0-1-0-1-0---4----

G--------------------------
D--------------------------
A--------------------------
E---4*1--2*3--4*4--2*0-
(ilosc * prog ;) )

_________________
...


Na górę
 Wyświetl profil
 Tytuł:
PostWysłany: pt, 17 grudnia 2004 09:17:49 
Awatar użytkownika

Rejestracja:
pt, 19 listopada 2004 15:47:56
Posty: 10888
8) Gitary w dłoń!!! i JAZDA!!!!

_________________
Więc dokąd, dokąd ta wędrówka
Posmutniał król i zadął w róg
Przeciwnik straszy, pielgrzym idzie
A pyta zawsze Bóg


Na górę
 Wyświetl profil
 Tytuł:
PostWysłany: pt, 17 grudnia 2004 21:53:46 
Awatar użytkownika

Rejestracja:
sob, 04 grudnia 2004 18:19:05
Posty: 249
Skąd: Zabrze
fiut:
E--------------------------
H--------------------------
G--------------------------
D--------------------------
A--3--2--3-3-2-5---------
D--3--2--3-3-2-5---------

(refren)

a zwrotka podobnie:
E--------------------------------------------
H--------------------------------------------
G--------------------------------------------
D--------------------------------------------
A--3-3-3-3-2-2-2-2-2----5-5-5-5-3-3-3-3
D--3-3-3-3-2-2-2-2-2----5-5-5-5-3-3-3-3

tylko nie jestem pewien czy to w tej tonacji...

_________________
Mięso i kości, serce i wątroba, wiatraki na niebie. martwica mózgowa!


Na górę
 Wyświetl profil
 Tytuł:
PostWysłany: czw, 10 lutego 2005 12:24:18 
Awatar użytkownika

Rejestracja:
pt, 19 listopada 2004 15:47:56
Posty: 10888
No to strasznie mało tych tabóf nawrzucaliście - nareszcie mam płytkę więc może coś wyczaruję. na razie tylko : Żaby i wężę:

Budz i Trupia czaszka - Żaby i wężę
wstęp
E-|---------------------------------------------------------------------------|
B-|---------------------------------------------------------------------------|
G-|---------------------------------------------------------------------------|
D-|-2-x-----------------------------------------------------------------------|
A-|-2-x-----------------------------------------------------------------------|
E-|-2-x-----------------------------------------------------------------------|

riff1:
E-|---------------------------------------------------------------------------|
B-|---------------------------------------------------------------------------|
G-|---------------------------------------------------------------------------|
D-|-2-x---5--4----------------------------------------------------------------|
A-|-2-x---5--4----------------------------------------------------------------|
E-|-2-x---5--4----------------------------------------------------------------|

końcóweczka:
E-|---------------------------------------------------------------------------|
B-|---------------------------------------------------------------------------|
G-|---------------------------------------------------------------------------|
D-|-2-------------------------------------------------------------------------|
A-|-2-------------------------------------------------------------------------|
E-|-2-------------------------------------------------------------------------|

poźniej wstęp i znowu riff 1 i końcówka :)

a potem...riff2:
E-|---------------------------------------------------------------------------|
B-|---------------------------------------------------------------------------|
G-|---------------------------------------------------------------------------|
D-|-2x--0--1------------------------------------------------------------------|
A-|-2x--0--1------------------------------------------------------------------|
E-|-2x--0--1------------------------------------------------------------------|

i riff 1 i końcóweczka :)

_________________
Więc dokąd, dokąd ta wędrówka
Posmutniał król i zadął w róg
Przeciwnik straszy, pielgrzym idzie
A pyta zawsze Bóg


Ostatnio zmieniony pn, 21 lutego 2005 21:13:31 przez Smok, łącznie zmieniany 1 raz

Na górę
 Wyświetl profil
 Tytuł:
PostWysłany: pt, 11 lutego 2005 12:26:04 
Awatar użytkownika

Rejestracja:
pt, 19 listopada 2004 15:47:56
Posty: 10888
zapomniałem dodać, że całość oczywiście w tonacji Dropped D!

_________________
Więc dokąd, dokąd ta wędrówka
Posmutniał król i zadął w róg
Przeciwnik straszy, pielgrzym idzie
A pyta zawsze Bóg


Na górę
 Wyświetl profil
 Tytuł:
PostWysłany: pn, 14 lutego 2005 11:01:21 
Awatar użytkownika

Rejestracja:
pt, 19 listopada 2004 15:47:56
Posty: 10888
FIUT - moja wersja modyfikacji taba woytecka:
Zwrotka
E-|---------------------------------------------------------------------------|
B-|---------------------------------------------------------------------------|
G-|---------------------------------------------------------------------------|
D-|-2x--1x--4x--2x------------------------------------------------------------|
A-|-2x--1x--4x--2x------------------------------------------------------------|
D-|-2x--1x--4x--2x------------------------------------------------------------|

Refren
E-|---------------------------------------------------------------------------|
B-|---------------------------------------------------------------------------|
G-|---------------------------------------------------------------------------|
D-|-2x--1x--2x--4x------------------------------------------------------------|
A-|-2x--1x--2x--4x------------------------------------------------------------|
D-|-2x--1x--2x--4x------------------------------------------------------------|

_________________
Więc dokąd, dokąd ta wędrówka
Posmutniał król i zadął w róg
Przeciwnik straszy, pielgrzym idzie
A pyta zawsze Bóg


Na górę
 Wyświetl profil
 Tytuł:
PostWysłany: ndz, 20 lutego 2005 11:01:16 
Awatar użytkownika

Rejestracja:
sob, 04 grudnia 2004 18:19:05
Posty: 249
Skąd: Zabrze
dobra, teraz znowu nie jestem pewien tonacji, ale wybaczcie mi, bo mój egzemplarz TC zalega od miesiąca u kolegi i nie mam jak sprawdzić.

Łopata:
zwrotka:
E-------------------------------------------------------------------
H-------------------------------------------------------------------
G-------------------------------------------------------------------
D-------------------------------------------------------------------
A----0--0--3--3----0--0--7--3------------------------------------
D----0--0--3--3----0--0--7--3------------------------------------

refren:
E-------------------------------------------------------------------
H-------------------------------------------------------------------
G-------------------------------------------------------------------
D-------------------------------------------------------------------
A------2--2--5-4-5----2--2--5-4-5-------------------------------
D------2--2--5-4-5----2--2--5-4-5------------------------------

Miejcie na względzie, że robię to z pamięci, bo płytysłuchałem ostatnio z miesiąc temu i mogą być drobne błędy.... Jak mi kumpel odda płytę to napiszę coś więcej. Ponadto niedługo napiszę tu taba do Larum, już w dobrej tonacji, bo mam mp3 ze strony Budzego :D

_________________
Mięso i kości, serce i wątroba, wiatraki na niebie. martwica mózgowa!


Na górę
 Wyświetl profil
 Tytuł:
PostWysłany: pn, 21 lutego 2005 20:42:48 
Awatar użytkownika

Rejestracja:
pt, 19 listopada 2004 15:47:56
Posty: 10888
wydaje mi się, że można by podnieść wszystko (we zwrotce) o pięć(5) progów - czyli zamiast od 0 - zacząć od 5 itd, ale co do refrenu to pewien nie jestem - tzn. nie miałem czasu sprawdzać

_________________
Więc dokąd, dokąd ta wędrówka
Posmutniał król i zadął w róg
Przeciwnik straszy, pielgrzym idzie
A pyta zawsze Bóg


Na górę
 Wyświetl profil
 Tytuł:
PostWysłany: pt, 08 kwietnia 2005 17:12:49 
Awatar użytkownika

Rejestracja:
sob, 04 grudnia 2004 18:19:05
Posty: 249
Skąd: Zabrze
Larum:

E-----------------------------------------------------------
H-----------------------------------------------------------
G-----------------------------------------------------------
D-----------------------------------------------------------
A---2--2--3--3----0----2--2--3--3----0------------------
D---2--2--3--3----0----2--2--3--3----0------------------

refren:
E-----------------------------------------------------------
H-----------------------------------------------------------
G-----------------------------------------------------------
D-----------------------------------------------------------
A----10--9--7------5--3--2-------------------------------
D----10--9--7------5--3--2------------------------------

tonacji tradycyjnie nie jestem pewien, bo mi się na razie nie chce sprawdzać, ale potem może sprawdzę i ewentualnie poprawię.

terminy już rozpracowałem, tylko muszę jeszcze sprawdzić i niedługo napiszę

_________________
Mięso i kości, serce i wątroba, wiatraki na niebie. martwica mózgowa!


Na górę
 Wyświetl profil
 Tytuł:
PostWysłany: pn, 11 kwietnia 2005 11:39:33 
Awatar użytkownika

Rejestracja:
pt, 19 listopada 2004 15:47:56
Posty: 10888
Terminy to mój ulubiony kawałek - zaraz po Larum i żabach :)

_________________
Więc dokąd, dokąd ta wędrówka
Posmutniał król i zadął w róg
Przeciwnik straszy, pielgrzym idzie
A pyta zawsze Bóg


Na górę
 Wyświetl profil
 Tytuł:
PostWysłany: ndz, 23 grudnia 2007 15:43:43 

Rejestracja:
wt, 09 listopada 2004 18:24:41
Posty: 1925
Cytat:
terminy już rozpracowałem, tylko muszę jeszcze sprawdzić i niedługo napiszę


To co z tymi Terminami? ;) Napaliłem się przez nagranie z DVD.


Na górę
 Wyświetl profil
 Tytuł:
PostWysłany: ndz, 23 grudnia 2007 19:25:49 
Awatar użytkownika

Rejestracja:
wt, 09 listopada 2004 23:39:35
Posty: 12221
Skąd: Nieznajowa/WarsawLove
:D

_________________
ja herez ja herez
Obrazek


Na górę
 Wyświetl profil
 Tytuł:
PostWysłany: wt, 08 stycznia 2008 22:13:58 

Rejestracja:
ndz, 21 maja 2006 08:38:59
Posty: 68
No właśnie ja się także napaliłem :) Ma ktoś rozpracowane taby do Terminów ? :)
Z góry dziękuje :D

Pozdrawiam serdecznie ;)


Na górę
 Wyświetl profil
 Tytuł:
PostWysłany: wt, 08 stycznia 2008 22:45:35 
Awatar użytkownika

Rejestracja:
pt, 19 listopada 2004 15:47:56
Posty: 10888
ale terminy były przecież już opracowywane,,,
Woyteck w innym wątku tabowym pisze:
Terminy:
E-----------------------------------------------------------------------------------
H-----------------------------------------------------------------------------------
G-----------------------------------------------------------------------------------
D---1--0--4--3--1--0--4--3--1--0--4--3--1--0--4--3--1----4--3--1----4--3--1
A---1--0--4--3--1--0--4--3--1--0--4--3--1--0--4--3--1----4--3--1----4--3--1
D---1--0--4--3--1--0--4--3--1--0--4--3--1--0--4--3--1----4--3--1----4--3--1

refren:
E-----------------------------------------------------------------------------------
H-----------------------------------------------------------------------------------
G--------3-3----------3-3--------2-2---------2-2--------------------------------
D----1---1-1----1----1-1----0---0-0----0----0-0--------------------------------
A----1-----------1------------0-----------0---------------------------------------
E----1-----------1------------0-----------0---------------------------------------

_________________
Więc dokąd, dokąd ta wędrówka
Posmutniał król i zadął w róg
Przeciwnik straszy, pielgrzym idzie
A pyta zawsze Bóg


Na górę
 Wyświetl profil
Wyświetl posty nie starsze niż:  Sortuj wg  
Nowy temat Odpowiedz w temacie  [ Posty: 16 ]  Przejdź na stronę 1, 2  Następna

Strefa czasowa UTC+1godz.



Kto jest online

Użytkownicy przeglądający to forum: Obecnie na forum nie ma żadnego zarejestrowanego użytkownika i 1 gość


Nie możesz tworzyć nowych tematów
Nie możesz odpowiadać w tematach
Nie możesz zmieniać swoich postów
Nie możesz usuwać swoich postów
Nie możesz dodawać załączników

Szukaj:
Przejdź do:  
Technologię dostarcza phpBB® Forum Software © phpBB Group