Ultima Thule

Forum fanów Armii i 2TM2,3
Dzisiaj jest pn, 23 października 2017 01:35:56

Strefa czasowa UTC+1godz.




Nowy temat Odpowiedz w temacie  [ Posty: 294 ]  Przejdź na stronę Poprzednia  1 ... 16, 17, 18, 19, 20
Autor Wiadomość
 Tytuł:
PostWysłany: pn, 29 czerwca 2009 22:46:17 

Rejestracja:
ndz, 28 czerwca 2009 08:34:55
Posty: 2
Skąd: Grybów
aha już wiem dzięki


Na górę
 Wyświetl profil
 Tytuł:
PostWysłany: czw, 25 marca 2010 10:55:42 
Awatar użytkownika

Rejestracja:
sob, 05 grudnia 2009 12:13:32
Posty: 26
allo!
Ma ktos moze taby na bas Pozwólcie Dzieciom ;> probuje rozkminic ale troche ciezko;p


Ostatnio zmieniony czw, 25 marca 2010 11:53:43 przez Dracula, łącznie zmieniany 1 raz

Na górę
 Wyświetl profil
 Tytuł:
PostWysłany: czw, 25 marca 2010 11:42:05 
Awatar użytkownika

Rejestracja:
pt, 19 listopada 2004 15:47:56
Posty: 10903
Dracula pisze:
taby na bas Pomóżcie dzieciom

a jakiego to zespołu?

_________________
Więc dokąd, dokąd ta wędrówka
Posmutniał król i zadął w róg
Przeciwnik straszy, pielgrzym idzie
A pyta zawsze Bóg


Na górę
 Wyświetl profil
 Tytuł:
PostWysłany: czw, 25 marca 2010 11:55:59 
Awatar użytkownika

Rejestracja:
sob, 05 grudnia 2009 12:13:32
Posty: 26
sorry juz poprawilam tytul;p Chodzi o Tymka Pozwolcie Dzieciom :) ostatnio malo spie, bo pisze prace i juz litery mi sie przestawiaja;p


Na górę
 Wyświetl profil
 Tytuł:
PostWysłany: ndz, 04 kwietnia 2010 13:36:11 

Rejestracja:
pn, 27 lipca 2009 16:46:24
Posty: 8
Witam Wszystkich Braci,mógłby ktoś rozpisać Marana Tha???


Na górę
 Wyświetl profil
 Tytuł:
PostWysłany: ndz, 04 kwietnia 2010 13:37:24 

Rejestracja:
pn, 27 lipca 2009 16:46:24
Posty: 8
Zapomnailem dodać,nie chodzi o taby, tylko o akordy, jesli jest to mozliwe to bylbym wdzieczny.


Na górę
 Wyświetl profil
 Tytuł:
PostWysłany: ndz, 04 kwietnia 2010 13:39:14 
Awatar użytkownika

Rejestracja:
pt, 19 listopada 2004 15:47:56
Posty: 10903
mcfly22 pisze:
Zapomnailem dodać,nie chodzi o taby, tylko o akordy, jesli jest to mozliwe to bylbym wdzieczny.

ładnie na taby jest to już rozpisane

Cytat:
Kod:
Marana tha

Strojenie: B F B DIS G C

INTRO:

Tempo: 78

Solo Joszki, potem

Riff1 x4 Riff2 x8

||------------------------||-||-------------------------------------------||
||*----------------------*||-||*-----------------------------------------*||
||------------------------||-||-------------------------------------------||
||--0---------5b6---5b6---||-||-------------------------------------------||
||*-0--------------------*||-||*-----------------------------------------*||
||--0---------------------||-||--0-0---0-{3}~---0-0---0-{3}~---0-0-{3}~---||

ZWROTKA 1:

Riff3

P.M....| P.M....| P.M.|
||----------------------------------||
||*--------------------------------*||
||----------------------------------||
||----------------------------------||
||*--0-0---0-3---0-0---0-3---0-0-3-*||
||---0-0---0-3---0-0---0-3---0-0-3--||
Duch (....)


REFREN:

Riff4

|---------|----------|---------------------------------------------|-----------
|---------|----------|---------------------------------------------|-----------
|---------|----------|---------------------------------------------|-----------
|-1-------|-3--------|---------------------------------------------|-----------
|-1-------|-3--------|---------------------------------------------|-----------
|-1-------|-3--------|-0-0-0-0-0-{3}~---0-0-0-0-0-{3}~---0-0-{3}~--|-0-0-0-0-0-
Marana Tha! /x6

x3
P.M.....|
|-----------------------------------|--------|--------||---------------||
|-----------------------------------|--------|--------||*-------------*||
|-----------------------------------|--------|--------||---------------||
|-----------------------------------|-1------|-3------||---------------||
|-----------------------------------|-1------|-3------||*-0--0--0-----*||
|-{3}~---0-0-0-0-0-{3}~---0-0-{3}~--|-1------|-3------||--0--0--0------||
Marana Tha! /x6

P.M...........|
|-----------------------||
|-----------------------||
|-----------------------||
|-----------------------||
|-0-0--0-0--0-0---------||
|-0-0--0-0--0-0---------||


na koncertach grane zdaje się pół tonu wyżej...





akordy chcesz na normalne strojenie?

_________________
Więc dokąd, dokąd ta wędrówka
Posmutniał król i zadął w róg
Przeciwnik straszy, pielgrzym idzie
A pyta zawsze Bóg


Na górę
 Wyświetl profil
 Tytuł:
PostWysłany: śr, 02 czerwca 2010 23:21:48 

Rejestracja:
sob, 23 stycznia 2010 17:08:02
Posty: 786
Skąd: Warszawa
nie chciało mi się przeglądać tematu więc jak jest powtórka to najwyżej będą 2 wersje...

Motyw z Psalmu 6 - na Dementi od 1:40
Kod:
B-------2-3-5-6-5-3-2--------------------2-3-5-6-5-3-2---3
G--2-3----------------2-0-3-2--------2-3---------------2--


Na górę
 Wyświetl profil
 Tytuł:
PostWysłany: sob, 15 marca 2014 23:27:07 

Rejestracja:
pn, 12 listopada 2007 18:03:41
Posty: 17
Witam dawno tu nie zaglądałem... dzięki za nie usunięcie mojego konta ;)
W ogóle mój post jest jakby lekko spóźniony.... ale co tam...
Może ktoś pamięta podczas prób do 888 był wrzucony taki kawałek

https://www.youtube.com/watch?v=vkYcRKsZA-c

jak wiem, nie został on do tej pory nigdzie wykorzystany,
może ktoś wie jak się go gra... albo ma pomysł jak się za to zabrać

Pozdrawiam

_________________
by odsłuchać wiadomość naciśnij 8 8 8


Na górę
 Wyświetl profil
Wyświetl posty nie starsze niż:  Sortuj wg  
Nowy temat Odpowiedz w temacie  [ Posty: 294 ]  Przejdź na stronę Poprzednia  1 ... 16, 17, 18, 19, 20

Strefa czasowa UTC+1godz.



Kto jest online

Użytkownicy przeglądający to forum: Obecnie na forum nie ma żadnego zarejestrowanego użytkownika i 1 gość


Nie możesz tworzyć nowych tematów
Nie możesz odpowiadać w tematach
Nie możesz zmieniać swoich postów
Nie możesz usuwać swoich postów
Nie możesz dodawać załączników

Szukaj:
Przejdź do:  
cron
Technologię dostarcza phpBB® Forum Software © phpBB Group