Ultima Thule

Forum fanów Armii i 2TM2,3
Dzisiaj jest ndz, 23 lipca 2017 17:53:49

Strefa czasowa UTC+1godz.




Nowy temat Odpowiedz w temacie  [ Posty: 294 ]  Przejdź na stronę Poprzednia  1 ... 16, 17, 18, 19, 20  Następna
Autor Wiadomość
 Tytuł:
PostWysłany: pt, 14 marca 2008 17:24:46 

Rejestracja:
ndz, 22 kwietnia 2007 20:29:38
Posty: 48
Skąd: Warszawa
Moim skromnym zdaniem "Nad rzekami Babilonu" to:
Zwrotka:
e G a

refren:
C e a D

Nie jestem pewien tego, a początek brzmi mi mniej więcej tak:

e D C a - ale tego to już kompletnie nie jestem pewien


Na górę
 Wyświetl profil
 Tytuł:
PostWysłany: ndz, 16 marca 2008 00:22:38 

Rejestracja:
ndz, 30 lipca 2006 19:31:57
Posty: 8
Skąd: Poznań
Przemaldinho lub Ebolu,
Czy możemy prosić Psalm 6? :)

(No chyba że ktoś inny umie, ale z tego co widzę ww. panowie wiodą prym w tabulaturach) :)


Na górę
 Wyświetl profil
 Tytuł:
PostWysłany: ndz, 16 marca 2008 12:56:23 
Awatar użytkownika

Rejestracja:
ndz, 20 sierpnia 2006 13:50:57
Posty: 302
Skąd: Nowy Tomyśl
Jak juz się tak ładnie zwróciłeś, to jakos mnie wźieło, usiadłem i zrobiłem :) Więc:

Co do podkładu to wszystko jest w d - moll, , potem A i g, jeżeli ktos mi na priva tekst napisze to dodam z chwytami w odpowiednim miejscu.

Można zagrać oktawe wyżej (nie wiem w której oktawie grają te melodie gitary)
E |----------------------------------------------------------------------------------------------------------------------------------------------------------------|
H |----------------------------------------------------------------------------------------------------------------------------------------------------------------|
G |-------------------------------------------------------------------------------------------6-7-9-10-9-7-6--------------------6-7-9-10-9-7-6----7---|
D |--7---7-5-7---7-5-7---7-5-7-8-7-5-7---7-5-7---7-5-7---7-5-7-8-7-5-7-8-----------------------7-5-8-7---7-8-------------------------7------|
A |----------------------------------------------------------------------------------------------------------------------------------------------------------------|
E |----------------------------------------------------------------------------------------------------------------------------------------------------------------|


a to drugie skrzypce w harmoni


E |------------------------------------------------------------------------------------------------------------------------------------------------------------------|
H |------------------------------------------------------------------------------------------------------------------------------------------------------------------|
G |-------------------------------------------------------------------------------------------6-7-9-10-9-7-6----------------------6-7-9-10-9-7-6----7---|
D |--7---7-5-7---7-5-7---7-5-7-8-7-5----------------------------------5-------7-8------------------------7-5-8-7---7-8------------------------7-----|
A |-------------------------------------------8---8-7-8---8-7-8---8-7-8----8-5------------------------------------------------------------------------------|
E |------------------------------------------------------------------------------------------------------------------------------------------------------------------|

Wybaczie, że tak niesestetycznie, ale czcionka forum jest taka ;)

_________________
Obrazek


Na górę
 Wyświetl profil
 Tytuł:
PostWysłany: ndz, 16 marca 2008 13:11:48 

Rejestracja:
ndz, 30 lipca 2006 19:31:57
Posty: 8
Skąd: Poznań
Dzię-ku-je-my! :D


Na górę
 Wyświetl profil
 Tytuł:
PostWysłany: śr, 19 marca 2008 18:39:42 

Rejestracja:
ndz, 22 kwietnia 2007 20:29:38
Posty: 48
Skąd: Warszawa
Ps. 108

poczatek to powerchord c i melodia
A---3-----3------5-3 itd.
E-----3-6----3-6


a melodia spiewu to:
A-5-6-5-6-5-3----33-------33--3
E----------------6-----6-5-6---6


i
na basowej E grane:
GGAB BGABGABGA x kilka i C


Na górę
 Wyświetl profil
 Tytuł:
PostWysłany: śr, 19 marca 2008 21:31:36 

Rejestracja:
śr, 04 stycznia 2006 15:46:11
Posty: 4
Skąd: Wrocław/Biskupin
Ps 118

zwrotka: G E D na riffach (druga gitara chyba normalnie)
ref.: A C G (chyba) i druga część F G (nie jestem pewien czy pomiędzy F i G nie ma jakigoś A)

_________________
<><


Na górę
 Wyświetl profil
 Tytuł:
PostWysłany: sob, 31 maja 2008 16:02:55 
Awatar użytkownika

Rejestracja:
pt, 19 listopada 2004 15:47:56
Posty: 10845
dżony pisze:
Ps 118

ewentualnie Wysławiajcie Pana
moja wersja,,,

wstępik:
h G

zwrotka:
G e-mol D
G D

Refren:
F G


przydało by się rozpisać jeszcze: "Głupi myśli" i "Ufaj Izraelu" (Ebol??)

_________________
Żeby się nie bać, iść do przodu,
Podnieść głowę, zaufać Bogu,
Tak sobie myślę, sercem czuje, tego właśnie potrzebuję!


Na górę
 Wyświetl profil
 Tytuł:
PostWysłany: ndz, 05 kwietnia 2009 17:14:20 
Awatar użytkownika

Rejestracja:
sob, 15 listopada 2008 20:38:31
Posty: 100
Skąd: Cieszyn-Kraków
Dorzucę coś od siebie :)

Jak na moje ucho, w utworze "Gdy usłyszałem Jego głos" przez cały utwór lecą 3 chwyty:

h D Fis

Kombinuję, jak to jest w "Miłuję Pana"... Jakiś 'patent' tam stosują :P

_________________
Iz 1, 18...


Na górę
 Wyświetl profil
 Tytuł:
PostWysłany: ndz, 05 kwietnia 2009 20:01:30 
Awatar użytkownika

Rejestracja:
pt, 19 listopada 2004 15:47:56
Posty: 10845
runelord pisze:
"Gdy usłyszałem Jego głos" przez cały utwór lecą 3 chwyty:

to żeś odkrył hamerykę ;)
od dawna ten kawałek leży na tej stronie:
Kod:
http://www.radykalni.kdm.pl/2tm23/2tm23_git/psalm_40_(akustycznie)_git.htm

- opracował to jakiś "Andrew" ;)

_________________
Żeby się nie bać, iść do przodu,
Podnieść głowę, zaufać Bogu,
Tak sobie myślę, sercem czuje, tego właśnie potrzebuję!


Na górę
 Wyświetl profil
 Tytuł:
PostWysłany: pn, 06 kwietnia 2009 15:48:05 
Awatar użytkownika

Rejestracja:
sob, 15 listopada 2008 20:38:31
Posty: 100
Skąd: Cieszyn-Kraków
Aa, tego nie wiedziałem :P

cóż... Tak to jest jak się nie śledzi, co wie google :P

_________________
Iz 1, 18...


Na górę
 Wyświetl profil
 Tytuł:
PostWysłany: wt, 07 kwietnia 2009 13:56:54 

Rejestracja:
ndz, 22 kwietnia 2007 20:29:38
Posty: 48
Skąd: Warszawa
Runelordzie - Russman rozpisał swój sposób grania Miłuję Pana na poprzedniej stronie wątku. Nie mam pewności, czy jest ona poprawna, ale zawsze coś ;)
A moim zdaniem "piosenka o tym, jak głupi myśli" jest grana jakoś tak:
Gitara "regowa": g i długo później Gis
zwrotka: g F
refren: Gis g x3 Fis g

melodia grana przez instrumenty dęte:
E------------------------------------------------
H--------------------------------------------------
G-------------------------------------------------
D--------------85-444445----------85-5666865
A-----------6---------------------6-------------
E-----6-8--------------------6-8---------------

Zabaw z kaczką nie opiszę, bo się nie znam na tym sprzęcie i nie wiem, jakie dźwięki to cudo zniekształca w danym momencie ;)

Proszę o weryfikację. Pomyślę teraz nad Ufaj Izraelu


Na górę
 Wyświetl profil
 Tytuł:
PostWysłany: wt, 07 kwietnia 2009 14:18:17 

Rejestracja:
ndz, 22 kwietnia 2007 20:29:38
Posty: 48
Skąd: Warszawa
Ufaj Izraelu:
Wstęp:
----------------------------------------
-----------------------------------
-----12-12-------11-11-----7-7------- ---
-----12-12-------12-12-----9-9-----9-9
---------------------------------------9-9
------------------------------------

Przejście pierwsze: (nie jestem pewien)
-------
-------
------
--4------3
--5------1
--5------1

Przejście drugie:
--------------
-----------------
--------------
--777777-888888
-------------
-----------------
a w tym przejściu w momencie "gdy pojawia się więcej niższych dźwięków" (ciężko mi to inaczej opisać), to nie mogę się zdecydować, który wariant się pojawia... Ten:
---------
--------
---------
--7--8
--5--6
--5--6

czy powtórka tego, co napisałem przy pierwszym przejściu... Choć zapewne w obu przejściach gitarzysta gra inaczej niż, to napisałem ;)


Na górę
 Wyświetl profil
 Tytuł:
PostWysłany: wt, 07 kwietnia 2009 20:00:23 
Awatar użytkownika

Rejestracja:
sob, 15 listopada 2008 20:38:31
Posty: 100
Skąd: Cieszyn-Kraków
przemaldinho pisze:
Runelordzie - Russman rozpisał swój sposób grania Miłuję Pana na poprzedniej stronie wątku. Nie mam pewności, czy jest ona poprawna, ale zawsze coś


No; coś jakby, chociaż ja to prościej myślałem rozpisać/zagrać...
Linia melodyczna to trochę wyższa szkoła jazdy jak dla mnie, ale coś pokombinowałem w "tle";

Pasuje mi tam barre na VII i IV progu (w zwrotce)... w refrenie jest trochę inaczej; mocniej i cuś pokombinowane :P

_________________
Iz 1, 18...


Na górę
 Wyświetl profil
 Tytuł:
PostWysłany: pn, 29 czerwca 2009 19:00:20 

Rejestracja:
ndz, 28 czerwca 2009 08:34:55
Posty: 2
Skąd: Grybów
E||-------------------------------------||
H||-8h10p8--------------------------||
G||-------------7h9p7----------7-9------||
D||------------------------10---------||
A||----------------------------------||
E||---------------------------------||

jak to się gra co znaczą te literki h i p ?


Na górę
 Wyświetl profil
 Tytuł:
PostWysłany: pn, 29 czerwca 2009 19:01:34 
Awatar użytkownika

Rejestracja:
ndz, 13 stycznia 2008 22:19:30
Posty: 4159
Skąd: Wrocław
hammer on - walnąć palcem ręki przyciskającej w strunę
pull off - puścić palcem ręki przyciskającej strunę

w obu przypadkach zrobić to tak, żeby (uwaga) wydało dźwięk

_________________
Obrazek


Na górę
 Wyświetl profil
Wyświetl posty nie starsze niż:  Sortuj wg  
Nowy temat Odpowiedz w temacie  [ Posty: 294 ]  Przejdź na stronę Poprzednia  1 ... 16, 17, 18, 19, 20  Następna

Strefa czasowa UTC+1godz.



Kto jest online

Użytkownicy przeglądający to forum: Obecnie na forum nie ma żadnego zarejestrowanego użytkownika i 2 gości


Nie możesz tworzyć nowych tematów
Nie możesz odpowiadać w tematach
Nie możesz zmieniać swoich postów
Nie możesz usuwać swoich postów
Nie możesz dodawać załączników

Szukaj:
Przejdź do:  
Technologię dostarcza phpBB® Forum Software © phpBB Group