Ultima Thule

Forum fanów Armii i 2TM2,3
Dzisiaj jest pn, 10 grudnia 2018 04:52:22

Strefa czasowa UTC+1godz.




Nowy temat Odpowiedz w temacie  [ Posty: 294 ]  Przejdź na stronę Poprzednia  1 ... 12, 13, 14, 15, 16, 17, 18 ... 20  Następna
Autor Wiadomość
 Tytuł:
PostWysłany: śr, 22 listopada 2006 10:31:36 
Awatar użytkownika

Rejestracja:
ndz, 20 sierpnia 2006 13:50:57
Posty: 302
Skąd: Nowy Tomyśl
Faktycznie trocheś się namęczył, pierwszy riff jest trochę błędnie zapisany, 3 i 4 akord powinien być o strune wyżej (brzmieniowo niżej ;) ) no i jeszcze mam troche uwag do reszty. Z racji tego, że już zaczołem wczoraj pisać swojego, to go dokończe i wkleje jeszcze dziś.

_________________
Obrazek


Na górę
 Wyświetl profil
 Tytuł:
PostWysłany: śr, 22 listopada 2006 10:53:36 
Awatar użytkownika

Rejestracja:
pt, 19 listopada 2004 15:47:56
Posty: 11143
Ebol pisze:
3 i 4 akord powinien być o strune wyżej (brzmieniowo niżej ;) )

rzeczywiście - to akurat błąd w zapisie - a nie moja ułomność słuchowa (choć czytając Twojego posta już myślałem że totalnie mi wczoraj na słuch padło )- dzięki za zauważenie tego błędu.

_________________
Więc dokąd, dokąd ta wędrówka
Posmutniał król i zadął w róg
Przeciwnik straszy, pielgrzym idzie
A pyta zawsze Bóg


Na górę
 Wyświetl profil
 Tytuł:
PostWysłany: śr, 22 listopada 2006 12:36:33 
Awatar użytkownika

Rejestracja:
ndz, 20 sierpnia 2006 13:50:57
Posty: 302
Skąd: Nowy Tomyśl
Pewnie, to widać odrazu że to taka literówka, zaraz podam wysztko po mojemu, ciekawe jak blisko orginału to leżeć będzie.

_________________
Obrazek


Na górę
 Wyświetl profil
 Tytuł:
PostWysłany: śr, 22 listopada 2006 13:00:27 
Awatar użytkownika

Rejestracja:
ndz, 20 sierpnia 2006 13:50:57
Posty: 302
Skąd: Nowy Tomyśl
Homilia Meltona (opracowanie - Ebol)

Strojenie: Droped-D (DADGHE)



Wstęp

Riff I x 8

Gitara I (od 5 taktu biciem)
E|------------------------------------|
H|------------------------------------|
G|------------------4-4-4-4-7-7-7-7---|
D|--5-5-5-5-2-2-2-2-4-4-4-4-7-7-7-7---|
A|--5-5-5-5-2-2-2-2-2-2-2-2-5-5-5-5---|
D|--5-5-5-5-2-2-2-2-------------------|


Gitara II (biciem, dopiero na 5 takt)

E|---------------------------------------------------------------------||
H|---------------------------------------------------------------------||
G|--12-12-12-12-11-9-7-7-9-7-7-7--12-12-12-12-11-9-11-11-11-11-11-11---||
D|---------------------------------------------------------------------||
A|--10-10-10-10-9--7-5-5-7-5-5-5--10-10-10-10-9--7-9--9--9--9--9--9----||
D|---------------------------------------------------------------------||

||--------------------------------------------------------------------|
||--------------------------------------------------------------------|
||--12-12-12-12-11-9-7-7-9-7-7-7--12-11-9-12-11-9-11-11-11-11-11-11---|
||--------------------------------------------------------------------|
||--10-10-10-10-9--7-5-5-7-5-5-5--10-9--7-10-9--7-9--9--9--9--9--9----|
||--------------------------------------------------------------------|


Zwrotka I (...Ty byłeś w Ablu zabity...)

Riff II x 4

E|---------------|
H|---------------|
G|----4-5----7---|
D|-5--4-5-2--7---|
A|-5--2-3-2--5---|
D|-5------2------|



Refren I (...Ty okryłeś mnie wstydem...)

Riff I x 4

Gitara I (biciem)
E|------------------------------------|
H|------------------------------------|
G|------------------4-4-4-4-7-7-7-7---|
D|--5-5-5-5-2-2-2-2-4-4-4-4-7-7-7-7---|
A|--5-5-5-5-2-2-2-2-2-2-2-2-5-5-5-5---|
D|--5-5-5-5-2-2-2-2-------------------|


Gitara II (biciem)

E|---------------------------------------------------------------------||
H|---------------------------------------------------------------------||
G|--12-12-12-12-11-9-7-7-9-7-7-7--12-12-12-12-11-9-11-11-11-11-11-11---||
D|---------------------------------------------------------------------||
A|--10-10-10-10-9--7-5-5-7-5-5-5--10-10-10-10-9--7-9--9--9--9--9--9----||
D|---------------------------------------------------------------------||

||--------------------------------------------------------------------|
||--------------------------------------------------------------------|
||--12-12-12-12-11-9-7-7-9-7-7-7--12-11-9-12-11-9-11-11-11-11-11-11---|
||--------------------------------------------------------------------|
||--10-10-10-10-9--7-5-5-7-5-5-5--10-9--7-10-9--7-9--9--9--9--9--9----|
||--------------------------------------------------------------------|



Zwrotka II (...Prześladowany zbawicel...)

Riff II x 4

E|---------------|
H|---------------|
G|----4-5----7---|
D|-5--4-5-2--7---|
A|-5--2-3-2--5---|
D|-5------2------|



Refren I (...Ty okryłeś mnie wstydem...)

Riff I x 4

Gitara I (biciem)
E|------------------------------------|
H|------------------------------------|
G|------------------4-4-4-4-7-7-7-7---|
D|--5-5-5-5-2-2-2-2-4-4-4-4-7-7-7-7---|
A|--5-5-5-5-2-2-2-2-2-2-2-2-5-5-5-5---|
D|--5-5-5-5-2-2-2-2-------------------|


Gitara II (biciem)

E|---------------------------------------------------------------------||
H|---------------------------------------------------------------------||
G|--12-12-12-12-11-9-7-7-9-7-7-7--12-12-12-12-11-9-11-11-11-11-11-11---||
D|---------------------------------------------------------------------||
A|--10-10-10-10-9--7-5-5-7-5-5-5--10-10-10-10-9--7-9--9--9--9--9--9----||
D|---------------------------------------------------------------------||

||--------------------------------------------------------------------|
||--------------------------------------------------------------------|
||--12-12-12-12-11-9-7-7-9-7-7-7--12-11-9-12-11-9-11-11-11-11-11-11---|
||--------------------------------------------------------------------|
||--10-10-10-10-9--7-5-5-7-5-5-5--10-9--7-10-9--7-9--9--9--9--9--9----|
||--------------------------------------------------------------------|




Refren II (...Jak Mojżesz Faraona...)

Riff III x 2


E|--------------------------------------------------------------------|
H|--------------------------------------------------------------------|
G|------------------4-4-4-4-4-4-4-4-6-7-7-7-7-7-7-7-4-4-4-4-2-2-2-2---|
D|--5-5-5-5-5-5-5-5-4-4-4-4-4-4-4-4-6-7-7-7-7-7-7-7-4-4-4-4-2-2-2-2---|
A|--5-5-5-5-5-5-5-5-2-2-2-2-2-2-2-2-3-5-5-5-5-5-5-5-2-2-2-2-0-0-0-0---|
D|--5-5-5-5-5-5-5-5---------------------------------------------------|


Solo

Riff III x 2

E|--------------------------------------------------------------------|
H|--------------------------------------------------------------------|
G|------------------4-4-4-4-4-4-4-4-6-7-7-7-7-7-7-7-4-4-4-4-2-2-2-2---|
D|--5-5-5-5-5-5-5-5-4-4-4-4-4-4-4-4-6-7-7-7-7-7-7-7-4-4-4-4-2-2-2-2---|
A|--5-5-5-5-5-5-5-5-2-2-2-2-2-2-2-2-3-5-5-5-5-5-5-5-2-2-2-2-0-0-0-0---|
D|--5-5-5-5-5-5-5-5---------------------------------------------------|





Refren II (...Jak Mojżesz Faraona...)


Riff I x 8

Gitara I (od 5 taktu biciem)
E|------------------------------------|
H|------------------------------------|
G|------------------4-4-4-4-7-7-7-7---|
D|--5-5-5-5-2-2-2-2-4-4-4-4-7-7-7-7---|
A|--5-5-5-5-2-2-2-2-2-2-2-2-5-5-5-5---|
D|--5-5-5-5-2-2-2-2-------------------|


Gitara II (biciem, dopiero na 5 takt)

E|---------------------------------------------------------------------||
H|---------------------------------------------------------------------||
G|--12-12-12-12-11-9-7-7-9-7-7-7--12-12-12-12-11-9-11-11-11-11-11-11---||
D|---------------------------------------------------------------------||
A|--10-10-10-10-9--7-5-5-7-5-5-5--10-10-10-10-9--7-9--9--9--9--9--9----||
D|---------------------------------------------------------------------||

||--------------------------------------------------------------------|
||--------------------------------------------------------------------|
||--12-12-12-12-11-9-7-7-9-7-7-7--12-11-9-12-11-9-11-11-11-11-11-11---|
||--------------------------------------------------------------------|
||--10-10-10-10-9--7-5-5-7-5-5-5--10-9--7-10-9--7-9--9--9--9--9--9----|
||--------------------------------------------------------------------|




Zwrotka III (...Wyprowadziłeś nas z niewoli...)


Riff II x 4

E|---------------|
H|---------------|
G|----4-5----7---|
D|-5--4-5-2--7---|
A|-5--2-3-2--5---|
D|-5------2------|




Refren I (...Ty okryłeś mnie wstydem...)

Riff I x 4

Gitara I (biciem)
E|------------------------------------|
H|------------------------------------|
G|------------------4-4-4-4-7-7-7-7---|
D|--5-5-5-5-2-2-2-2-4-4-4-4-7-7-7-7---|
A|--5-5-5-5-2-2-2-2-2-2-2-2-5-5-5-5---|
D|--5-5-5-5-2-2-2-2-------------------|


Gitara II (biciem)

E|---------------------------------------------------------------------||
H|---------------------------------------------------------------------||
G|--12-12-12-12-11-9-7-7-9-7-7-7--12-12-12-12-11-9-11-11-11-11-11-11---||
D|---------------------------------------------------------------------||
A|--10-10-10-10-9--7-5-5-7-5-5-5--10-10-10-10-9--7-9--9--9--9--9--9----||
D|---------------------------------------------------------------------||

||--------------------------------------------------------------------|
||--------------------------------------------------------------------|
||--12-12-12-12-11-9-7-7-9-7-7-7--12-11-9-12-11-9-11-11-11-11-11-11---|
||--------------------------------------------------------------------|
||--10-10-10-10-9--7-5-5-7-5-5-5--10-9--7-10-9--7-9--9--9--9--9--9----|
||--------------------------------------------------------------------|



zakończenie

E|---------------------------------------|
H|---------------------------------------|
G|--------------------4---4---4---7~~~---|
D|--5--5--5--2--2--2--4---4---4---7~~~---|
A|--5--5--5--2--2--2--2---2---2---5~~~---|
D|--5--5--5--2--2--2---------------------|

_________________
Obrazek


Na górę
 Wyświetl profil
 Tytuł:
PostWysłany: ndz, 26 listopada 2006 19:29:42 
Awatar użytkownika

Rejestracja:
śr, 30 sierpnia 2006 11:56:31
Posty: 440
Dred a gdzie ta reszta filmików,które miałeś wkleic?
:)

_________________
...nie muszę wygrywać, wolę kwiatki zrywać.


Na górę
 Wyświetl profil
 Tytuł:
PostWysłany: ndz, 26 listopada 2006 19:38:35 
Awatar użytkownika

Rejestracja:
pt, 19 listopada 2004 15:47:56
Posty: 11143
też już do Niego pisałem, ale cisza,,, ja też czekam na te filmiki

_________________
Więc dokąd, dokąd ta wędrówka
Posmutniał król i zadął w róg
Przeciwnik straszy, pielgrzym idzie
A pyta zawsze Bóg


Na górę
 Wyświetl profil
 Tytuł:
PostWysłany: pn, 27 listopada 2006 21:26:52 

Rejestracja:
pn, 20 listopada 2006 21:15:17
Posty: 19
Skąd: Rzeszów
A można się dowiedzieć o jakie filmiki chodzi :?:


Na górę
 Wyświetl profil
 Tytuł:
PostWysłany: pn, 27 listopada 2006 23:17:45 
Awatar użytkownika

Rejestracja:
pt, 19 listopada 2004 15:47:56
Posty: 11143
Młoda pisze:
A można się dowiedzieć o jakie filmiki chodzi?

Można: http://ultimathule.nor.pl/viewtopic.php?p=117933#p117933 - w tym poście dredziarz wstawił plik który trzeba ściagnąć i zobaczyć co i jak - i zapowiedział, że wstawi też kilka innych,,,niestety nie wstawił :(

_________________
Więc dokąd, dokąd ta wędrówka
Posmutniał król i zadął w róg
Przeciwnik straszy, pielgrzym idzie
A pyta zawsze Bóg


Na górę
 Wyświetl profil
 Tytuł: slowo
PostWysłany: pt, 08 grudnia 2006 11:43:27 

Rejestracja:
śr, 01 grudnia 2004 14:16:01
Posty: 2647
dobra, dzis rano w smoczej jamie opracowalismy slowo na nowo. z braku czasu nie bede sie odnosil do poprzedniej wersji i nie bede zwracal uwagi na tonacje ani rytm, podam tylko pare cyferek:

zw:
6----6------4
4-4-4-2/6-2
---4---2/6--

ref:
7
5-7-5
---7-5


Na górę
 Wyświetl profil
 Tytuł:
PostWysłany: śr, 27 grudnia 2006 14:30:00 
Awatar użytkownika

Rejestracja:
ndz, 20 sierpnia 2006 13:50:57
Posty: 302
Skąd: Nowy Tomyśl
Mam dobre wieści, dziś w mojej rodzinnej miejscowości, organizowany jest koncert kolęd "zespołu w składzie", a zainteresowani wiedzą, że gra tam Kmieta i Dręzmak, więc sprubuje się dowiedzieć jak gra się psalm 63, może jeszcze jakieś zamówienia ?

_________________
Obrazek


Na górę
 Wyświetl profil
 Tytuł:
PostWysłany: śr, 27 grudnia 2006 20:19:23 

Rejestracja:
pt, 24 grudnia 2004 11:30:21
Posty: 27
Skąd: nogalwica
oj chyba na zamówienie za pózno ale jak można to "Kto nas odłączy" ;a jak nie to może Ebol podejmiesz się tego? :wink: ,aa i ten wstęp do shalom fajnie też, to tyle narazie

_________________
atakjejnanoc


Na górę
 Wyświetl profil
 Tytuł:
PostWysłany: czw, 28 grudnia 2006 01:03:14 
Awatar użytkownika

Rejestracja:
ndz, 20 sierpnia 2006 13:50:57
Posty: 302
Skąd: Nowy Tomyśl
Zadanie wykonane, wiem jak zagrać ps 63, jutro jak znajde czas to rozpisze, tak przy okazji polecam wszytkim koncert kolęd Zespołu w składzie, naprawde zarąbista sprawa.
nawiązując do przedmówcy, raczej sam to zrobie, jeszcze będę się z nim jutro (właściwie dzisiaj) widział, ale już nie chce go męczyć.
(dowiedziałem się i nauczyłem kilku fajnych rzeczy, ale to juz chyba info tylko dla mnie :) )

_________________
Obrazek


Na górę
 Wyświetl profil
 Tytuł:
PostWysłany: czw, 28 grudnia 2006 09:37:09 
Awatar użytkownika

Rejestracja:
pt, 19 listopada 2004 15:47:56
Posty: 11143
Ebol pisze:
dowiedziałem się i nauczyłem kilku fajnych rzeczy, ale to juz chyba info tylko dla mnie

no co ty, nie podzielisz się wiedzą z błądzącymi we mgle??
no i gdzie jest rozpisana jakaś trasa tego "zespołu w składzie"??

_________________
Więc dokąd, dokąd ta wędrówka
Posmutniał król i zadął w róg
Przeciwnik straszy, pielgrzym idzie
A pyta zawsze Bóg


Na górę
 Wyświetl profil
 Tytuł:
PostWysłany: czw, 28 grudnia 2006 12:56:25 
Awatar użytkownika

Rejestracja:
ndz, 20 sierpnia 2006 13:50:57
Posty: 302
Skąd: Nowy Tomyśl
http://www.koncerty.kdm.pl/ - info o koncertach,
Jeżeli coś Cie tak mocno interesuje Armijny smoku, to wal na priv'a lub gg ;), ja się zabieram za opracowanie ps 63

_________________
Obrazek


Na górę
 Wyświetl profil
 Tytuł:
PostWysłany: czw, 28 grudnia 2006 22:16:49 
Awatar użytkownika

Rejestracja:
ndz, 20 sierpnia 2006 13:50:57
Posty: 302
Skąd: Nowy Tomyśl
no i sie dopełniło, w końcu całość, pewno nie bęzie mi się chciało, ale może kiedyś zrobie solówki.

Ps 63 (opracowanie - Ebol)

Strojenie standardowe Droped-D DADGHE


Wstęp

Riff I
E|---------------------|
H|---------------------|
G|---------------------|
D|------7--------------|
A|------5--5h7-7-7-5---|
D|--0-0----5---5-5-5---| x 4



Zwrotka I (...Tak pragnie Ciebie...)

Riff I
E|---------------------|
H|---------------------|
G|---------------------|
D|------7--------------|
A|------5--5h7-7-7-5---|
D|--0-0----5---5-5-5---| x 8



Rrefren (...uuu, ty jesteś zemną...)

Riff II
E|----------------------------------------------------|
H|----------------------------------------------------|
G|----------------------------------------------------|
D|--3-3-3-3---------5-5-5-5---------3-3-3-3-----------|
A|--1-1-1-1-3-3-3-3-3-3-3-3-5-5-5-5-1-1-1-1-3-3-3-3---|
D|----------3-3-3-3---------5-5-5-5---------3-3-3-3---|



Zwrotka II (...Cenniejsza jest niż życie...)

Riff I
E|---------------------|
H|---------------------|
G|---------------------|
D|------7--------------|
A|------5--5h7-7-7-5---|
D|--0-0----5---5-5-5---| x 8



Rrefren I (...uuu, ty jesteś zemną...)

Riff II
E|--------------------------------------------------------------------|
H|--------------------------------------------------------------------|
G|--------------------------------------------------------------------|
D|--3-3-3-3---------5-5-5-5---------3-3-3-3---------5-5-5-5-----------|
A|--1-1-1-1-3-3-3-3-3-3-3-3-5-5-5-5-1-1-1-1-3-3-3-3-3-3-3-3-3-3-3-3---|
D|----------3-3-3-3---------5-5-5-5---------3-3-3-3---------3-3-3-3---|

Refren II (...Ze mną, jesteś ze mną...)

Riff I
E|---------------------|
H|---------------------|
G|---------------------|
D|------7--------------|
A|------5--5h7-7-7-5---|
D|--0-0----5---5-5-5---| x 4



Zwrotka III (..Do Ciebie lgnie dusza moja...)

Riff I
E|---------------------|
H|---------------------|
G|---------------------|
D|------7--------------|
A|------5--5h7-7-7-5---|
D|--0-0----5---5-5-5---| x 8



Rrefren I (...uuu, ty jesteś zemną...)

Riff II
E|--------------------------------------------------------------------|
H|--------------------------------------------------------------------|
G|--------------------------------------------------------------------|
D|--3-3-3-3---------5-5-5-5---------3-3-3-3---------5-5-5-5-----------|
A|--1-1-1-1-3-3-3-3-3-3-3-3-5-5-5-5-1-1-1-1-3-3-3-3-3-3-3-3-3-3-3-3---|
D|----------3-3-3-3---------5-5-5-5---------3-3-3-3---------3-3-3-3---|

Refren II (...Ze mną, jesteś ze mną...)

Riff I
E|---------------------|
H|---------------------|
G|---------------------|
D|------7--------------|
A|------5--5h7-7-7-5---|
D|--0-0----5---5-5-5---| x 4


Solo


Riff I
E|---------------------|
H|---------------------|
G|---------------------|
D|------7--------------|
A|------5--5h7-7-7-5---|
D|--0-0----5---5-5-5---| x 4

Riff II
E|--------------------------------------------------------------------|
H|--------------------------------------------------------------------|
G|--------------------------------------------------------------------|
D|--3-3-3-3---------5-5-5-5---------3-3-3-3---------5-5-5-5-----------|
A|--1-1-1-1-3-3-3-3-3-3-3-3-5-5-5-5-1-1-1-1-3-3-3-3-3-3-3-3-3-3-3-3---|
D|----------3-3-3-3---------5-5-5-5---------3-3-3-3---------3-3-3-3---|

Riff I
E|---------------------|
H|---------------------|
G|---------------------|
D|------7--------------|
A|------5--5h7-7-7-5---|
D|--0-0----5---5-5-5---| x 4



Zwrotka IV (...Tak pragnie Ciebie...)

Riff I
E|---------------------|
H|---------------------|
G|---------------------|
D|------7--------------|
A|------5--5h7-7-7-5---|
D|--0-0----5---5-5-5---| x 8



Rrefren I (...uuu, ty jesteś zemną...)

Riff II
E|--------------------------------------------------------------------|
H|--------------------------------------------------------------------|
G|--------------------------------------------------------------------|
D|--3-3-3-3---------5-5-5-5---------3-3-3-3---------5-5-5-5-----------|
A|--1-1-1-1-3-3-3-3-3-3-3-3-5-5-5-5-1-1-1-1-3-3-3-3-3-3-3-3-3-3-3-3---|
D|----------3-3-3-3---------5-5-5-5---------3-3-3-3---------3-3-3-3---| x 2

Refren II (...Ze mną, jesteś ze mną...)

Riff I
E|---------------------|
H|---------------------|
G|---------------------|
D|------7--------------|
A|------5--5h7-7-7-5---|
D|--0-0----5---5-5-5---| x 4



Zakończenie

E|-------------------|
H|-------------------|
G|-------------------|
D|--3-3-3--------0---|
A|--1-1-1-3-3-3--0---|
D|--------3-3-3--0---|

_________________
Obrazek


Na górę
 Wyświetl profil
Wyświetl posty nie starsze niż:  Sortuj wg  
Nowy temat Odpowiedz w temacie  [ Posty: 294 ]  Przejdź na stronę Poprzednia  1 ... 12, 13, 14, 15, 16, 17, 18 ... 20  Następna

Strefa czasowa UTC+1godz.



Kto jest online

Użytkownicy przeglądający to forum: Obecnie na forum nie ma żadnego zarejestrowanego użytkownika i 1 gość


Nie możesz tworzyć nowych tematów
Nie możesz odpowiadać w tematach
Nie możesz zmieniać swoich postów
Nie możesz usuwać swoich postów
Nie możesz dodawać załączników

Szukaj:
Przejdź do:  
cron
Technologię dostarcza phpBB® Forum Software © phpBB Group